Knot Comes Loose
 
tabbed by Tombarton@gmail.com
 
Intro (these are just the chords and what hear as the changes, listen to the
recording to pick up on the rhythms): 
F     Gm     Am     Gm     F
|-1-----3-----5-----3-----1-----|
|-1-----3-----5-----3-----1-----|
|-2-----3-----5-----3-----2-----|
|-3--4--5--6--7--6--5--4--3-----|
|-3-----5-----7-----5-----3-----|
|-1-----3-----5-----3-----1-----|

 
Verse:  
F. ...................................................Gm      
Lately, Can't you see that im sliding?
Am..................................................................Gm  
Cant you see there's a part of me that's brand new?
Am...................................................... Gm
Used to be 'was a part of me felt like hiding
Gm........................F    
But now it comes thru!
 
Chorus:  
|-1--1--1-1---1--1---1--1---1---0---0-0--3-3--1--0-0--0---|
|-1--1--1-1---1--1---1--1---1---1---1-1--1-1--1--1-1--1---|
|-0--2--2-2---0--2---3--3---2---0---0-0----------0-0--0---|
|-3--3--3-3---3--3---x--x---3---2---2-2---------------2---|
|-3--3--3-3---3--3---3--3---3---3---3-3---------------3---|
|----------------------------------------------------------|

Deep in my heart, that's where the knot comes loose
Deep in my heart, i will remember you 
 
Am
All my lovely life I've been waiting
Gm
Hot heels anticipatin
Am..............................................Dm....Am
another love i found not to let it down
 
Dm.................Am..............Cm...............Gm........(2x)
Ahhhhhhhh  Ahhhhhh  Ahhhhhhh  Ahhhhhhh
 Gm...................Am
Ahhhhhhh   Ahhhhhh
  
Chorus:
|-1--1--1-1---1--1---1--1---1---0---0-0--3-3--1--0-0--0---|
|-1--1--1-1---1--1---1--1---1---1---1-1--1-1--1--1-1--1---|
|-0--2--2-2---0--2---3--3---2---0---0-0----------0-0--0---|
|-3--3--3-3---3--3---x--x---3---2---2-2---------------2---|
|-3--3--3-3---3--3---3--3---3---3---3-3---------------3---|
|----------------------------------------------------------|

Deep in my heart, that's where the knot comes loose
Deep in my heart, i will remember you 
 
F......................................................Gm  
Lately, Can't you see that im sliding?
Am..................................................................Gm  
Cant you see there's a part of me that's brand new?
Am............................................................Gm
Used to be 'was a part of me felt like hiding
Gm............................F    
But now it comes loose
F
But now it comes loose
F
Now it comes loose