Steam Engine
 

Gmaj7: 3x0032
 

D     Am     Am/G (x02213)
so, I do believe.

C  

none of this is physical
  G
at least not to me
D     Am Am/G
so, I do believe
  C
that anywhere it goes
  G
t's always with me
    Bm    
it's not the dream
      G
that makes you weak
    Em     A    x02220, x02230,x02250
it's not the night that makes you sleep
  D G  
but it's a voice. and it's a choice
  Em     A   x02220, x02230, x02250
to call you out. or stay at home
 
solo: Bm G Em A


D     Am
so! I do believe
  C
none of this is physical
  G
at least not to me
D    Am
so I do believe
  C
that anywhere it goes
  G
it's always with me
    Bm   G
it's not the beast. it's not the sheets
  Em   A
so soft and warm. all over me
    D   G
but it's the touch. you need so much
     Em   A    x02220, x02230, x02250
to move around on this green earth

A   x02220, x02230, x02250

Aaaahhh, Aaaahhh, Aaaahhh


      Gmaj7  A
take your money and your drugsssssssssssss
      Gmaj7  A
take your money and your drugsssssssssssss
Gmaj7     A
  to anyone who wondered
Gmaj7   A
  what old jebus meant to me
Gmaj7   A
  take him out to go diving
Gmaj7   A
  in red patoka sea
Gmaj7   A
  the brain melts in the twilight
Gmaj7       A
  with the boar and moving trees
Gmaj7     A
  your skin looks good in moonlight
Gmaj7      A
  and god damn those shaky knees
Gmaj7      A  
  the fact that my heart's beating
Gmaj7      A
  is all the proof you need

 

 

***Now the first guitar / Lead parts****

 

D     Am  

e--10------------10-----12---8---------8----

B-----12-10------10--------------10----10---
G----------------12--------------------9----

D-------------------------------------------

A-------------------------------------------

E-------------------------------------------

so, I do believe.

 

C G

e---------7--------7------------------7------7---7----

B-----------10-8----10-8-------------8--8-8--8--8----

G----------------------------------9-----9-------7----

D-----------------------------------------------------

A-----------------------------------------------------

E-----------------------------------------------------

none of this is physical at least not to me

 

Bm (D) G

e------------15-13-12-------------15-15-13-12--------

B------------13-13-13-------------13-13-13-13--------

G----------------------------------------------------

D----------------------------------------------------

A----------------------------------------------------

E----------------------------------------------------

Its not the dream That makes you weak

 

Em

e---------14--12--12--10-----10h12p10----

B---------15--14--12--12--12-------------

G----------------------------------------

D----------------------------------------

A----------------------------------------

E----------------------------------------

its not the night

 

A

e-----------13----15----15----

B-----------14----15----17----

G-----------------------------

D-----------------------------

A-----------------------------

E-----------------------------

that makes you sleep

 

BRIDGE (use a slide for full effect):

Bm G

e------------------------------------------

B---10/7---10/7---10--12--10--12--10--8----

G------------------------------------------

D------------------------------------------

A------------------------------------------

E------------------------------------------

 

Em A

e----------------------------(14)------(14)-----

B10/8----10--8---7--8----15-----15--15---15----

G-----------------------------------------------

D-----------------------------------------------

A-----------------------------------------------

E-----------------------------------------------

 

OUTRO riff

e----------------------------------------------

B----------------------------------------------

G----------------------------------------------

D------7-6------7-6---------6----6--6----------

A--7-9-------7-9------7--9-----9------9--7-9---

E----------------------------------------------