oNE BIG HOLidAy
 

GUITAR 1:

RIFF 1 (repeat four times):

e-------8------8------8------8---
B--8h10---8h10---8h10---8h10-----
G--------------------------------

D--------------------------------

A--------------------------------

E--------------------------------


e------10-----10-----10------10--

B--8h10---8h10---8h10---8h10-----

G--------------------------------

D--------------------------------

A--------------------------------

E--------------------------------

 

e------12-----12-----12------12--

B-8h10---8h10---8h10---8h10------

G--------------------------------

D--------------------------------

A--------------------------------

E--------------------------------

GUITAR 2 (play over riff 1):

e--------------------------------

B--------------------------------

G--17-----17-----17-----17-------

D-17h19--17h19--17h19--17h19----

A--------------------------------

E--------------------------------

- or -

e--------------------------------

B--------------------------------

G--12-----12-----12-----12-------

D-12h14--12h14--12h14--12h14----

A--------------------------------

E--------------------------------

last bar of intro play the rhythm chords: F, G, Am

 

RIFF 2 (repeat twice):  

F G Am

e------5-5--------------77-------

B--5b6------6r5----7b8----8r7----

G---------------7-------------9--

D--------------------------------
A--------------------------------

E--------------------------------

 

e----------------------------------

B--8b10-10-10----------------------

G-------------7-9-9-9-9--9p7-------

D----------------------------10p7--

A----------------------------------

E----------------------------------

 

RIFF 3:

e-------------------------

B-------------------------

G--5--7-(7)-7--5----5----- (repeat four times as GUITAR

D----------------7-------- 2 continues rhythm chords:

A------------------------- F G Am / )

E-------------------------


 C(x35553) F (x8.10.10.10.8)
wakin up feelin good and limber  
Em(x79987) Dm (x57765)

when the telephone it rings  

B--------------8----

G--5--7--57~-------

C F

it was a bad man from California  
Em Dm

tellin of a stone hed bring  
Em * Dm G

 

* e---0----0--0-0-0-0---

B---3-/--5--5-5-5-5---


G Am
and of better days  

From this town wed escape
If we holler loud and make our way

we'd all live one big holiday  

C F

so we listened and up the river
Em Dm

and recorded all the sounds
C F

was some shakin and some record playin
Em Dm

all the leather kids were loud

 

G Am
             
RIFF 1 (repeat twice)

 

SOLO