Master Plan

 

Dm

 

FIGURE 1

e--------------------------------

B--------------------------------

G--------------------------------

D--------0--3--0-----------------

A--0--3-----------3b-------------

E--------------------------------

 

Dm       C
I've got a masterplan babe, I been workin on it from the start.
F     G
pluggin in all of the numbers, watchin it on all of the charts.
Dm     C
just cause it starts off slow babe, doesn't mean it don't have a heart.
F
you'll be walkin round showin off someday
G      
FIGURE 2
and it'll take you right back to the start. Oh take you to the start.

 

FIGURE 2:

F C

e---------------------------------

B---------------------------------

G--------0--2---0h2--0----0-------

D--0--3-----------------3---3-0---

A---------------------------------

E---------------------------------

 

F G

e----------------------------------------------

B----------------------------------------------

G----------------------------------------------

D----0h2-3-0---0h2-3-2-0---------------0-------

A----------------------------------------------

E--------------------------3--3--1--3-----3----


F    G       Dm
it's everything that you want babe.
it's everything that you need.
soft and warm al the time, make you want it over and over.
F   G    Dm      C   Dm   G riff
strong on the horizon, but ends up bein really so sweet... oh so sweet... oh so sweet
 
 Dm       C
sometimes I wanna lay down babe. sometimes I wanna stand up and fight.
F     G

sometimes it runs its course in a day. sometimes it goes for night after night.
Dm       C

know that it will start off strong babe, and it will end up weak in the end.
F     G

just like the heart you break of a love babe, just like the hand you take of a friend.

  F    G       Dm
it's everything that you want babe.
it's everything that you need.
soft and warm all the time, make you want it over and over.  

F   G    Dm      C   Dm   G riff
strong on the horizon, but ends up bein really so sweet... oh so sweet...
      Dm   Dm     G
oh so sweet.... oh so sweet
 
G
FIGURE 1 (repeat 4 times)

Slide from F to G into FIGURE 1 until end.