mahgeetah

 

Open Em Tuning = EBEGBe

 

Capo on 1

 

E = 000100

Emaj = 000120

F#m1 = xxx222

F#m2 = 222222

G#m1 = xxx444

G#m2 = 444444

B = 777877

A = 555655

 

E Emaj F#m1 G#m1 X 2

E Emaj F#m1 G#m1

sittin here with me and mine.

all wrapped up in a bottle of wine
little we can do... we gonna see it thru somehow

so... now are you ready to go? my lady
I been waitin on the boat here I been waitin so long

 

BRIDGE

E

e-----------------------------------

B-----------------------------------

G-----------------------------------

D----------------------------------- X 2

A---5----7--54~----5----7--9--5-~--

E-----------------------------------

 

guitar #1:

e--------------------------------

B----5----9----5---4~-----------

G--------------------------------

D--------------------------------

A--------------------------------

E--------------------------------

guitar #2

e--------------------------------

B--------------------------------

G-----Missing---Help welcome!----

D---Somewhere high on the neck---

A--------------------------------

E--------------------------------

 

 

(no chords, bass line)

bang! bang! goes the night.

all wrapped up in the firelight
don't "rock bottom," just listen. just slow down

 

E Emaj F#m1 G#m1

so... now are you ready to go, my lady?
I been waitin on the boat here, I been waitin so long...

E

 

CHORUS (once without words, once with words)

F#m2 G#m2 F#m2 G#m2 F#m2

e-----------------------------------------------

B-----------------------------------------------

G-5~------------------------4--6-4-------------

D------5---4-5--4-5~---4-5----------5h6p5--5---

A-----------------------------------------------

E-----------------------------------------------

G#m2 E

e-----------------------------------------------

B-----------------------------------------------

G-------46-4------------------------2-4-2------

D-4-5--------5h6p5--4---2-4---0-2-4--------2---

A-----------------------------------------------

E-----------------------------------------------

 

F#m2 G#m2
"can he see me?

F#m2 G#m2

does he feel me?

F#m2 G#m2 E

does he know me at all?"

F#m2 G#m2

" does it shiver?

F#m2 G#m2

always deliver?

F#m2 G#m2 E

does it know me at all?"

 

BRIDGE


E Emaj F#m1 G#m1

so... now are you ready to go? my lady
I been waitin on the boat here I been waitin so long

 

OUTRO

 

B A E Eriff X4

Ahhh. Mahgeeta mahgeeta

 

E Eriff

e--0---0---0--0--0--0------------------

B--0---0---0--0--0--0------------------

G--1---1---1--1--1--1------------------

D--0---0---0--0--0--0-----0--22~------

A--0---0---0--0--0--00h2--------------

E--0---0---0--0--0--0------------------

 

 

Repeat E Eriff to END