I'm Amazed
Tabbed by Ian Taylor

Capo on 1

Chords:
F/A  X-0-3-2-1-1
G/B  X-2-0-0-3-3

Riff 1:
Gtr 1(Top)& 2(Bottom)
 <---------[x3]-------------->   <------------[x1]---------------->
e---8h10p8\7--8p7-------7-------|-----8h10p8\7--8p7------------------|
B-----------------10-8----8-----|-------------------10--8------------|
G-------------------------------|------------------------------------|
D-------------------------------|------------------------------------|
A---3h5p3\2---3p2---------------|-----3h5p3\2---3p2------------------|
E-----------------5--3----------|--------------------5--3------------|

Riff 2:
Gtr 1(Top)& Gtr 2(Bottom)  
Gtr 3 plays chords

G    F/A      C          G   F/A    C
e-----7-----8p7--8--8p7--8----7----8p7-8----0-0-0-0-0-0-0-0-------0--|
B--8----10------------------8---10----------1-1-1-1-1-1-1-1-------1--|
G-------------------------------------------0-0-0-0-0-0-0-0-------0--|
D-------------------------------------------2-2-2-2-2-2-2-2-------2--|
A-----2--0--3p2--3--3p2--3----2-0--3p2-3----3-3-3-3-3-3-3-3-------3--|
E--3------------------------3----------------------------------------|

    G                            C G C
I'm amazed at a quiet ocean, I'm amazed at your warm devotion
    G                                      C
I'm amazed at what the people sayin', I'm amazed by a divided nation.
        D             C                 G
Like the rhythm of the earth, I get disrupted.    

Fill 1:
    G
e--------------------------------------------------------------------|
B-------------------8------------------------------------------------|
G-----5^(7)--5^(7)hold--(7)^(5)^(7)^(5)p3--4/------------------------|
D--------------------------------------------------------------------|
A--------------------------------------------------------------------|
E--------------------------------------------------------------------|


     G                                C G C
I'm amazed at all that has been, I'm amazed at all that will be.
     G                                C
I'm amazed at the t.v. stations, I'm amazed what they want me to believe
     D               C                     G
After all is said and done, where is the justice?


Riff 1

     G                                C G C
I'm amazed at lack of evolution, I'm amazed at the lack of faith
     G                                   C
I'm amazed at the love we rejected, I'm amazed that we accepted its place
         D            C              D             C
Like the rhythm of the earth, and the rhythm of the ages
         D     G/B     C               G
Like the rhythm............I get disrupted.

Solo

Chords for solo:

G C X 4 (as in VERSE)

G F/A C X 3 (as in RIFF 2)

G (hold)


Riff 1 x2