Highly Suspicious
 
Intro Riff
F|------------------------------------------------------
B|------------------------------------------------------
G|------------------------------------------------------
D|-----3---------------3------------3----------------3--
A|------------------------------------------------------
E|--1-----1------1--1-----1------1-----1-------1--1-----
 
Wasting time home alone dotting your "I's".
Peanut butter pudding surprise!
Ain't nobody care what's going on in your mind-
But they got they eye on your prize...
 
F|-----
B|--1--
G|--1--
D|--3--
A|--3--
E|--1--
I'm highly suspicious of you.

Now daddy's got you home alone- solving your crimes.
Peanut butter pudding surprise!
Ain't no jokin, smokin, strokin, tapping your lines-
Peanut butter pudding surprise!
F|-----
B|--1--
G|--1--
D|--3--
A|--3--
E|--1--
I'm highly suspicious of you.

Wasting all your time on drama, could be solving real crime
Waste away your mind too...

Iím high
F|------------------------------------
B|------------------------------------
G|------------------------------------
D|--6--3--6--3--6----6--3--6--3--6/8--
A|------------------------------------
E|------------------------------------
 

I'm highly suspicious of you.
I'm highly suspicious. highly suspicious of you.
 
I'm highly suspicious of you.
I'm highly suspicious. highly suspicious of you.
 
 
 
intro to solo thing
F|------------------------------------------------------------------
B|----------------9--------9-----------------9--------9--9--9b11----
G|--8b10----8/10-----8/10-----8--8b10--8/10-----8/10----------------
D|------------------------------------------------------------------
A|------------------------------------------------------------------
E|------------------------------------------------------------------
 
more pre-solo thing
F|--------10--------10--10---10/12v--
B|--11/13-----11/13--------------
G|-------------------------------
D|-------------------------------
A|-------------------------------
E|-------------------------------
 
more pre solo :D
F|---------12--10--12---------12--10--12--
B|--11/13--------------11/13--------------
G|----------------------------------------
D|----------------------------------------
A|----------------------------------------
E|----------------------------------------
 
SOLO!
F|--10/12--10--12--5--7--5--7v--7r5r0h3--0--
B|------------------------------------------
G|------------------------------------------
D|------------------------------------------
A|------------------------------------------
E|------------------------------------------
 
F|--10/12--10--12--5--7--5--7v--7r5r0-7--0--7--7/10
B|------------------------------------------
G|------------------------------------------
D|------------------------------------------
A|------------------------------------------
E|------------------------------------------
 
 
F|--10/12--10--12--5--7--5--7v--7r5r0h3r0h3--0--
B|------------------------------------------
G|------------------------------------------
D|------------------------------------------
A|------------------------------------------
E|------------------------------------------
 
little nuance at the end(palm mute)
F|------------------------------------
B|------------------------------------
G|------------------------------------
D|--3--3--6-------------------------
A|------------------------------------
E|------------------------------------