Evil Urges

 

Riff 1

e----8----10---7---------8----10--7---5--3-------

B------------------------------------------------

G----8----10---7---------8----10--7---5--4-------

D------------------------------------------------

A------------------------------------------------

E------------------------------------------------

 

Riff 2 (over the lyrics)
e----------------(15)---13-12----8----10---7^8^7---------------------|
b------810^12--------------------------------------/10-/12-/10--8---|
g--/9----------------------------------------------------------------|
D--------------------------------------------------------------------|
A--------------------------------------------------------------------|
E--------------------------------------------------------------------|


Chorus is Riff 1 with G on the bass

Verse 2 is Riff 2

Vamp to bridge
F   D7   C  G

Staying on C and G

With this riff at the end of the turnaround.
e--------------------------------------------------------------|
b-------------4--5--4---------/2--/4--/2---0-------------------|
g--/(5)---------------------------------------------/(5)-------|
D--------------------------------------------------------------|
A--------------------------------------------------------------|
E--------------------------------------------------------------|

Breakdown:
e-----------------------------------------------------|
b------4----4----4-----------4-----4-----4^(5)--------|
g---55---5----5---5-------55----5-----5---------------|
D-----------------------------------------------------|
A-----------------------------------------------------|
E-----------------------------------------------------|

Then back to Riff 1 for the Chorus

 

 

Bridge

C G

 

 

Breakdown

e--------------------------------------------------------

B--------------------------------------------------------

G----4-0-0-4-0-0-4-0-0-4-0-00---4-0-0-4-0-0-4-0-0-5-----

D--------------------------------------------------------

A--------------------------------------------------------

E--------------------------------------------------------

 

Guitar Part 2 on the breakdown is basically the same as Guitar 1, just an octave higher.