Strangulation

Capo on 1

 

INTRO/OUTRO (Three guitar parts. For the intro the layer on top of each other one at a time in the order I have them listed. If youre playing in a band the second guitar could be played by the bass):

 

Guitar 1: Em (0220xx) Strum throughout intro

 

Guitar 2:

A------------------------

E--0----12---8--8--8-----

 

Guitar 3:

G------------------------

D---2s4--2---------------

A------------2--3--2-----

 

G----------------0--2----

D---2s4--2----4----------

A------------------------

 

Repeat all parts until crescendo where guitar 3 plays this:

e-------------------------------

B-------------------------------

G-------------------------------

D4s6-6s8-8s9--9s10-10s11----

A-------------------------------

E-------------------------------

 

C G

strangulation
G C G

I don't wanna feel a thing.
G Em C

When your hands close tight around my neck,
D

and force the air that I breathe.
C

I don't wanna feel a thing.

G

I don't wanna feel a thing.

BRIDGE: Play next part at same time (repeat twice)

e-------------------------------------

B-------------------------------------

G-----2--4--5-----0h2--0h2--0h2--5----

D--5----------------------------------

A-------------------------------------

E-------------------------------------

2nd guitar (Rhythm chords: C,G, and Am)

e--------------0-----------------3----

B--------------1-----------------3----

G--------------0-----------------0----

D--------------2---0h2-0h2-0h2---0----

A-----0--2--3--3---0---0---0-----2----

E-3-----------------------------3----

 

G C G

Yes she was a young girl.
G C

Bout the age of 23.
Em C

but somehow the lord never smiled down upon her,
D

so she flew out on a breeze.
C

Said: "I don't wanna feel a thing,

G

I don't want to feel a thing."

REPEAT BRIDGE

 

G C G

Sure he was a good kid.

G C

But his phone it'd never ring.
Em C

He got tired of walkin a tightrope,
D

needin too much to drink.
C

So he got on a knee.
Em

"I don't want to feel a thing"
C

but I know there's someone that loves up above
D

and want to fix you a dream.
C

He wants to sit down and think.
D

He wants to pour you a drink.
C

And you wont feel a thing.

G

You wont feel a thing.

 

REPEAT BRIDGE

 

REPEAT INTRO/OUTRO