Chills (At Dawn Demo, 2001 & Z b-side, 2006)

 

NOTE: The two versions are musically the same, besides the tempo. The lyrics are mainly the same with a few variations.

 

A/e = x07650

F#maj =

 

FIGURE 1:

A/e F#maj

e--0--0-------5-----0--0--2--0-------

B--5-5--5--7----7-5--2--2-------3--2--

G--6-6---------------3--3-------------

D--7--7---------------4--4-------------

A--0------------------0----------------

E--X------------------X----------------

 

Dsus

e--0---0---10--9---------0--0---10--9----------

B--10--10--------12--10--10--10--------12--10---

G--11--11----------------11--11-----------------

D--12--12----------------12--12-----------------

A--0---------------------0----------------------

E-----------------------------------------------

 

FIGURE 2:

A A7 A+ E

e--0--0--0--------0----0----

B--2--2--2--0--2--3----0----

G--2--2--0--------2----1----

D--2--2--2--------3----2----

A--0--0--0--------0----2----

E--X--X--X--------X----0----

 

Intro: FIGURE 1 once

 

A A7 A+ E

Still feel that Im getting ill

A A7 A+ E

Ohhhh

A A7 A+ E

Chills. Down on my spine

A A7 A+ E

I do on a window sill

A A7 A+ E

 

A/e F#maj Dsus

Still Things that go away

A/e F#maj Dsus

Ahhhhh, eewww-ohhhhhh

A A7 A+ E

 

A A7 A+ E

Still. Feel like no one can tell

A A7 A+ E

Chills run down my spine

A A7 A+ E

Ahhhhh-ahhhhhh ahhhhhh- eww

 

A/e F#maj Dsus

Still No one else lives your life

A/e F#maj Dsus

Except yourself. No one else lives your life

A/e F#maj Dsus

Except yourself . No one else lives your life

A A7 A+ E

Still. No one else lives your life

A A7 A+ E

Still eewww

A A7 A+ E

 

OUTRO

e--5--------5--------5--------9h10-9s79p75h7-5----

B-----5--7-----5--7----5--6-------------------------

G---------------------------------------------------

D---------------------------------------------------

A---------------------------------------------------

E---------------------------------------------------