Lil Billy

 

e---------------0--0---------------

B---------------0--0---------------

G----2----------1--1---------------

D----2------2---2--2--------------- X 4

A----0------2---2--2---------------

E-------3~--0---0--0---------------

 

A

we were partyin down
one saturday night
Billy walks up to me
says its time to fight
D

See me and the boy.
were bein all loud
A

bein an asshole
heís interrupting the crowd
 †††††† D
so a friend walks up to me
says "make that billy bleed

A
me and my girl are gettin sick
you better make him leave or we gonna quit"
 E††††††††††††††††††††††††††† D
oh billy billy billy
††††††††††††††††††††††† A

when you gonna learn?
††††††††††† E††††††††††††††††††††† †††††††††† D

that a stupid fuck like you
††††††††††††††††††††††††† A

you only gonna burn
 

A
you gotta lotta nerve boy
you gotta lotta gull
To come into my house
Really fuck things (?)


you gotta lotta nerve boy
you gotta lotta guts
††† A

if i was seventeeeeen
i'd really fuck you up
 E†††††††††††††††††††††††††††††††† D
oh billy billy billy
††††††††††††††††††††††† †††† A

when you gonna learn?
††††††††††† E††††††††††††††††††††††††††††††††† D

that a stupid fuck like you ††††††††††††††††††††
††††††††††††††††††††††† †† A

you only gonna burn

 

e-----------------------------------

B-----------------------------------

G--9--7--5----------8--7--5---------

D-----------7-5h7------------7-5h7--

A-----------------------------------

E-----------------------------------
 

D

See how people they change
People they grow up
A

People they do things
I ain't speaking of
E†††††††††††††††††††††††††††††††††††††††††††††

But the greatest thing  
†† D††††††††††††††††† A

I ever ever saw

E††††††††††††† D††††††††††††††† A

To see you burn!!!

 

 

e--------------------------------

B--------------------------------

G------------6--6--6-------------

D------------7--7--7-------------

A------------7--7--7-------------

E---3--4--5--5--5--5-------------

 

 

NOTE: Iím still working on the second guitarís part during the breakdown. The riff on A is really the bass part but the guitar can mimic the bass line which happens throughout the song.